  0
SECTION
  2
HEADER
  9
$ACADVER
  1
AC1015
  9
$ACADMAINTVER
 70
     6
  9
$DWGCODEPAGE
  3
ANSI_1254
  9
$INSBASE
 10
0.0
 20
0.0
 30
0.0
  9
$EXTMIN
 10
0.0
 20
0.0
 30
0.0
  9
$EXTMAX
 10
279.4
 20
215.9
 30
0.0
  9
$LIMMIN
 10
0.0
 20
0.0
  9
$LIMMAX
 10
279.4
 20
215.9
  9
$ORTHOMODE
 70
     0
  9
$REGENMODE
 70
     1
  9
$FILLMODE
 70
     1
  9
$QTEXTMODE
 70
     0
  9
$MIRRTEXT
 70
     1
  9
$LTSCALE
 40
1.0
  9
$ATTMODE
 70
     1
  9
$TEXTSIZE
 40
3.5
  9
$TRACEWID
 40
1.0
  9
$TEXTSTYLE
  7
Standard
  9
$CLAYER
  8
0
  9
$CELTYPE
  6
ByLayer
  9
$CECOLOR
 62
   256
  9
$CELTSCALE
 40
1.0
  9
$DISPSILH
 70
     0
  9
$DIMSCALE
 40
1.0
  9
$DIMASZ
 40
3.5
  9
$DIMEXO
 40
1.0
  9
$DIMDLI
 40
3.75
  9
$DIMRND
 40
0.0
  9
$DIMDLE
 40
0.0
  9
$DIMEXE
 40
1.0
  9
$DIMTP
 40
0.0
  9
$DIMTM
 40
0.0
  9
$DIMTXT
 40
3.5
  9
$DIMCEN
 40
2.5
  9
$DIMTSZ
 40
0.0
  9
$DIMTOL
 70
     0
  9
$DIMLIM
 70
     0
  9
$DIMTIH
 70
     1
  9
$DIMTOH
 70
     1
  9
$DIMSE1
 70
     0
  9
$DIMSE2
 70
     0
  9
$DIMTAD
 70
     1
  9
$DIMZIN
 70
     0
  9
$DIMBLK
  1

  9
$DIMASO
 70
     1
  9
$DIMSHO
 70
     1
  9
$DIMPOST
  1

  9
$DIMAPOST
  1

  9
$DIMALT
 70
     0
  9
$DIMALTD
 70
     3
  9
$DIMALTF
 40
0.0393700787
  9
$DIMLFAC
 40
1.0
  9
$DIMTOFL
 70
     1
  9
$DIMTVP
 40
0.0
  9
$DIMTIX
 70
     0
  9
$DIMSOXD
 70
     0
  9
$DIMSAH
 70
     0
  9
$DIMBLK1
  1

  9
$DIMBLK2
  1

  9
$DIMSTYLE
  2
ISO-25
  9
$DIMCLRD
 70
     0
  9
$DIMCLRE
 70
     0
  9
$DIMCLRT
 70
     0
  9
$DIMTFAC
 40
1.0
  9
$DIMGAP
 40
1.524
  9
$DIMJUST
 70
     0
  9
$DIMSD1
 70
     0
  9
$DIMSD2
 70
     0
  9
$DIMTOLJ
 70
     0
  9
$DIMTZIN
 70
     0
  9
$DIMALTZ
 70
     0
  9
$DIMALTTZ
 70
     0
  9
$DIMUPT
 70
     0
  9
$DIMDEC
 70
     2
  9
$DIMTDEC
 70
     2
  9
$DIMALTU
 70
     2
  9
$DIMALTTD
 70
     3
  9
$DIMTXSTY
  7
Standard
  9
$DIMAUNIT
 70
     0
  9
$DIMADEC
 70
     2
  9
$DIMALTRND
 40
0.0
  9
$DIMAZIN
 70
     0
  9
$DIMDSEP
 70
    44
  9
$DIMATFIT
 70
     3
  9
$DIMFRAC
 70
     0
  9
$DIMLDRBLK
  1

  9
$DIMLUNIT
 70
     2
  9
$DIMLWD
 70
    -2
  9
$DIMLWE
 70
    -2
  9
$DIMTMOVE
 70
     0
  9
$LUNITS
 70
     2
  9
$LUPREC
 70
     2
  9
$SKETCHINC
 40
1.0
  9
$FILLETRAD
 40
10.0
  9
$AUNITS
 70
     0
  9
$AUPREC
 70
     2
  9
$MENU
  1
.
  9
$ELEVATION
 40
0.0
  9
$PELEVATION
 40
0.0
  9
$THICKNESS
 40
0.0
  9
$LIMCHECK
 70
     0
  9
$CHAMFERA
 40
0.0
  9
$CHAMFERB
 40
0.0
  9
$CHAMFERC
 40
0.0
  9
$CHAMFERD
 40
0.0
  9
$SKPOLY
 70
     0
  9
$TDCREATE
 40
2458985.682539965
  9
$TDUCREATE
 40
2458985.557539965
  9
$TDUPDATE
 40
2458985.682540243
  9
$TDUUPDATE
 40
2458985.557540243
  9
$TDINDWG
 40
0.0000000116
  9
$TDUSRTIMER
 40
0.0000000116
  9
$USRTIMER
 70
     1
  9
$ANGBASE
 50
0.0
  9
$ANGDIR
 70
     0
  9
$PDMODE
 70
     0
  9
$PDSIZE
 40
-1.0
  9
$PLINEWID
 40
0.0
  9
$SPLFRAME
 70
     0
  9
$SPLINETYPE
 70
     6
  9
$SPLINESEGS
 70
     8
  9
$HANDSEED
  5
CB
  9
$SURFTAB1
 70
     6
  9
$SURFTAB2
 70
     6
  9
$SURFTYPE
 70
     6
  9
$SURFU
 70
     6
  9
$SURFV
 70
     6
  9
$UCSBASE
  2

  9
$UCSNAME
  2

  9
$UCSORG
 10
0.0
 20
0.0
 30
0.0
  9
$UCSXDIR
 10
1.0
 20
0.0
 30
0.0
  9
$UCSYDIR
 10
0.0
 20
1.0
 30
0.0
  9
$UCSORTHOREF
  2

  9
$UCSORTHOVIEW
 70
     0
  9
$UCSORGTOP
 10
0.0
 20
0.0
 30
0.0
  9
$UCSORGBOTTOM
 10
0.0
 20
0.0
 30
0.0
  9
$UCSORGLEFT
 10
0.0
 20
0.0
 30
0.0
  9
$UCSORGRIGHT
 10
0.0
 20
0.0
 30
0.0
  9
$UCSORGFRONT
 10
0.0
 20
0.0
 30
0.0
  9
$UCSORGBACK
 10
0.0
 20
0.0
 30
0.0
  9
$PUCSBASE
  2

  9
$PUCSNAME
  2

  9
$PUCSORG
 10
0.0
 20
0.0
 30
0.0
  9
$PUCSXDIR
 10
1.0
 20
0.0
 30
0.0
  9
$PUCSYDIR
 10
0.0
 20
1.0
 30
0.0
  9
$PUCSORTHOREF
  2

  9
$PUCSORTHOVIEW
 70
     0
  9
$PUCSORGTOP
 10
0.0
 20
0.0
 30
0.0
  9
$PUCSORGBOTTOM
 10
0.0
 20
0.0
 30
0.0
  9
$PUCSORGLEFT
 10
0.0
 20
0.0
 30
0.0
  9
$PUCSORGRIGHT
 10
0.0
 20
0.0
 30
0.0
  9
$PUCSORGFRONT
 10
0.0
 20
0.0
 30
0.0
  9
$PUCSORGBACK
 10
0.0
 20
0.0
 30
0.0
  9
$USERI1
 70
     0
  9
$USERI2
 70
     0
  9
$USERI3
 70
     0
  9
$USERI4
 70
     0
  9
$USERI5
 70
     0
  9
$USERR1
 40
0.0
  9
$USERR2
 40
0.0
  9
$USERR3
 40
0.0
  9
$USERR4
 40
0.0
  9
$USERR5
 40
0.0
  9
$WORLDVIEW
 70
     1
  9
$SHADEDGE
 70
     3
  9
$SHADEDIF
 70
    70
  9
$TILEMODE
 70
     1
  9
$MAXACTVP
 70
    64
  9
$PINSBASE
 10
0.0
 20
0.0
 30
0.0
  9
$PLIMCHECK
 70
     0
  9
$PEXTMIN
 10
1.0000000000E+20
 20
1.0000000000E+20
 30
1.0000000000E+20
  9
$PEXTMAX
 10
-1.0000000000E+20
 20
-1.0000000000E+20
 30
-1.0000000000E+20
  9
$PLIMMIN
 10
0.0
 20
0.0
  9
$PLIMMAX
 10
420.0
 20
297.0
  9
$UNITMODE
 70
     0
  9
$VISRETAIN
 70
     1
  9
$PLINEGEN
 70
     0
  9
$PSLTSCALE
 70
     1
  9
$TREEDEPTH
 70
  3020
  9
$CMLSTYLE
  2
Standard
  9
$CMLJUST
 70
     0
  9
$CMLSCALE
 40
20.0
  9
$PROXYGRAPHICS
 70
     1
  9
$MEASUREMENT
 70
     1
  9
$CELWEIGHT
370
    -1
  9
$ENDCAPS
280
     0
  9
$JOINSTYLE
280
     0
  9
$LWDISPLAY
290
     1
  9
$INSUNITS
 70
     4
  9
$HYPERLINKBASE
  1

  9
$STYLESHEET
  1

  9
$XEDIT
290
     1
  9
$CEPSNTYPE
380
     0
  9
$PSTYLEMODE
290
     1
  9
$FINGERPRINTGUID
  2
{4502ca79-73eb-4cdf-903e-ec0f42ce2547}
  9
$VERSIONGUID
  2
{FAEB1C32-E019-11D5-929B-00C0DF256EC4}
  9
$EXTNAMES
290
     1
  9
$PSVPSCALE
 40
0.0
  9
$OLESTARTUP
290
     0
  0
ENDSEC
  0
SECTION
  2
CLASSES
  0
CLASS
  1
ACDBDICTIONARYWDFLT
  2
AcDbDictionaryWithDefault
  3
ObjectDBX Classes
 90
        0
280
     0
281
     0
  0
CLASS
  1
VISUALSTYLE
  2
AcDbVisualStyle
  3
ObjectDBX Classes
 90
     4095
280
     0
281
     0
  0
CLASS
  1
MATERIAL
  2
AcDbMaterial
  3
ObjectDBX Classes
 90
     1153
280
     0
281
     0
  0
CLASS
  1
SCALE
  2
AcDbScale
  3
ObjectDBX Classes
 90
     1153
280
     0
281
     0
  0
CLASS
  1
TABLESTYLE
  2
AcDbTableStyle
  3
ObjectDBX Classes
 90
     4095
280
     0
281
     0
  0
CLASS
  1
MLEADERSTYLE
  2
AcDbMLeaderStyle
  3
ACDB_MLEADERSTYLE_CLASS
 90
     4095
280
     0
281
     0
  0
CLASS
  1
SUN
  2
AcDbSun
  3
SCENEOE
 90
     1153
280
     0
281
     0
  0
CLASS
  1
ACDBPLACEHOLDER
  2
AcDbPlaceHolder
  3
ObjectDBX Classes
 90
        0
280
     0
281
     0
  0
CLASS
  1
LAYOUT
  2
AcDbLayout
  3
ObjectDBX Classes
 90
        0
280
     0
281
     0
  0
ENDSEC
  0
SECTION
  2
TABLES
  0
TABLE
  2
VPORT
  5
8
330
0
100
AcDbSymbolTable
 70
     1
  0
VPORT
  5
29
330
8
100
AcDbSymbolTableRecord
100
AcDbViewportTableRecord
  2
*Active
 70
     0
 10
0.0
 20
0.0
 11
1.0
 21
1.0
 12
139.7
 22
107.95
 13
0.0
 23
0.0
 14
10.0
 24
10.0
 15
10.0
 25
10.0
 16
0.0
 26
0.0
 36
1.0
 17
0.0
 27
0.0
 37
0.0
 40
215.9
 41
1.2941176471
 42
50.0
 43
0.0
 44
0.0
 50
0.0
 51
0.0
 71
     0
 72
  2000
 73
     1
 74
     3
 75
     0
 76
     0
 77
     0
 78
     0
281
     0
 65
     1
110
0.0
120
0.0
130
0.0
111
1.0
121
0.0
131
0.0
112
0.0
122
1.0
132
0.0
 79
     0
146
0.0
  0
ENDTAB
  0
TABLE
  2
LTYPE
  5
5
330
0
100
AcDbSymbolTable
 70
     6
  0
LTYPE
  5
14
330
5
100
AcDbSymbolTableRecord
100
AcDbLinetypeTableRecord
  2
ByBlock
 70
     0
  3

 72
    65
 73
     0
 40
0.0
  0
LTYPE
  5
15
330
5
100
AcDbSymbolTableRecord
100
AcDbLinetypeTableRecord
  2
ByLayer
 70
     0
  3

 72
    65
 73
     0
 40
0.0
  0
LTYPE
  5
16
330
5
100
AcDbSymbolTableRecord
100
AcDbLinetypeTableRecord
  2
Continuous
 70
     0
  3
Solid line
 72
    65
 73
     0
 40
0.0
  0
LTYPE
  5
6E
330
5
100
AcDbSymbolTableRecord
100
AcDbLinetypeTableRecord
  2
HIDDEN
 70
     0
  3
Hidden __ __ __ __ __ __ __ __ __ __ __ __ __ __
 72
    65
 73
     2
 40
1.905
 49
1.27
 74
     0
 49
-0.635
 74
     0
  0
LTYPE
  5
6F
330
5
100
AcDbSymbolTableRecord
100
AcDbLinetypeTableRecord
  2
PHANTOM
 70
     0
  3
Phantom ______  __  __  ______  __  __  ______
 72
    65
 73
     6
 40
12.7
 49
6.35
 74
     0
 49
-1.27
 74
     0
 49
1.27
 74
     0
 49
-1.27
 74
     0
 49
1.27
 74
     0
 49
-1.27
 74
     0
  0
LTYPE
  5
70
330
5
100
AcDbSymbolTableRecord
100
AcDbLinetypeTableRecord
  2
CENTER
 70
     0
  3
Center ____ _ ____ _ ____ _ ____ _ ____ _ ____
 72
    65
 73
     4
 40
10.16
 49
6.35
 74
     0
 49
-1.27
 74
     0
 49
1.27
 74
     0
 49
-1.27
 74
     0
  0
LTYPE
  5
71
330
5
100
AcDbSymbolTableRecord
100
AcDbLinetypeTableRecord
  2
CENTERX2
 70
     0
  3
Center (2x) ________  __  ________  __  _____
 72
    65
 73
     4
 40
20.32
 49
12.7
 74
     0
 49
-2.54
 74
     0
 49
2.54
 74
     0
 49
-2.54
 74
     0
  0
LTYPE
  5
72
330
5
100
AcDbSymbolTableRecord
100
AcDbLinetypeTableRecord
  2
DOT2
 70
     0
  3
Dot (.5x) ........................................
 72
    65
 73
     2
 40
0.635
 49
0.0
 74
     0
 49
-0.635
 74
     0
  0
ENDTAB
  0
TABLE
  2
LAYER
  5
2
330
0
100
AcDbSymbolTable
 70
    17
  0
LAYER
  5
10
330
2
100
AcDbSymbolTableRecord
100
AcDbLayerTableRecord
  2
0
 70
     0
 62
     7
  6
Continuous
370
    -3
390
F
  0
LAYER
  5
73
330
2
100
AcDbSymbolTableRecord
100
AcDbLayerTableRecord
  2
FORMAT
 70
     0
 62
     7
  6
Continuous
370
    -3
390
F
  0
LAYER
  5
74
330
2
100
AcDbSymbolTableRecord
100
AcDbLayerTableRecord
  2
YARDIMCI_GEOMETRI
 70
     0
 62
    -6
  6
Continuous
290
     0
370
    -3
390
F
  0
LAYER
  5
75
330
2
100
AcDbSymbolTableRecord
100
AcDbLayerTableRecord
  2
SAYFA_CERCEVESI
 70
     0
 62
     7
  6
Continuous
370
    25
390
F
  0
LAYER
  5
76
330
2
100
AcDbSymbolTableRecord
100
AcDbLayerTableRecord
  2
ANTET
 70
     0
 62
     7
  6
Continuous
370
    -3
390
F
  0
LAYER
  5
77
330
2
100
AcDbSymbolTableRecord
100
AcDbLayerTableRecord
  2
OLCU
 70
     0
 62
   150
  6
Continuous
370
    -3
390
F
  0
LAYER
  5
78
330
2
100
AcDbSymbolTableRecord
100
AcDbLayerTableRecord
  2
METIN
 70
     0
 62
    96
  6
Continuous
370
    -3
390
F
  0
LAYER
  5
79
330
2
100
AcDbSymbolTableRecord
100
AcDbLayerTableRecord
  2
BALON
 70
     0
 62
     5
  6
Continuous
370
    -3
390
F
  0
LAYER
  5
7A
330
2
100
AcDbSymbolTableRecord
100
AcDbLayerTableRecord
  2
VURGU
 70
     0
 62
     7
  6
Continuous
370
    -3
390
F
  0
LAYER
  5
7B
330
2
100
AcDbSymbolTableRecord
100
AcDbLayerTableRecord
  2
SILIK
 70
     0
 62
     7
  6
Continuous
370
    -3
390
F
  0
LAYER
  5
7C
330
2
100
AcDbSymbolTableRecord
100
AcDbLayerTableRecord
  2
MODEL
 70
     0
 62
     7
  6
Continuous
370
    -3
390
F
  0
LAYER
  5
7D
330
2
100
AcDbSymbolTableRecord
100
AcDbLayerTableRecord
  2
DETAYLANDıRMA
 70
     0
 62
   190
  6
Continuous
370
    -3
390
F
  0
LAYER
  5
7E
330
2
100
AcDbSymbolTableRecord
100
AcDbLayerTableRecord
  2
TOLERANS
 70
     0
 62
   230
  6
Continuous
370
    -3
390
F
  0
LAYER
  5
7F
330
2
100
AcDbSymbolTableRecord
100
AcDbLayerTableRecord
  2
MERKEZ_CIZGILERI
 70
     0
 62
    30
  6
Continuous
370
    -3
390
F
  0
LAYER
  5
80
330
2
100
AcDbSymbolTableRecord
100
AcDbLayerTableRecord
  2
KESIT-DETAY_CIZGILERI
 70
     0
 62
     7
  6
Continuous
370
    -3
390
F
  0
LAYER
  5
81
330
2
100
AcDbSymbolTableRecord
100
AcDbLayerTableRecord
  2
\U+041E\U+0421\U+0415\U+0412\U+042B\U+0415
 70
     0
 62
     7
  6
Continuous
370
    -3
390
F
  0
LAYER
  5
82
330
2
100
AcDbSymbolTableRecord
100
AcDbLayerTableRecord
  2
\U+0412\U+041E\U+0414\U+042F\U+041D\U+042B\U+0415_\U+0417\U+041D\U+0410\U+041A\U+0418
 70
     0
 62
    11
  6
Continuous
370
    -3
390
F
  0
ENDTAB
  0
TABLE
  2
STYLE
  5
3
330
0
100
AcDbSymbolTable
 70
     1
  0
STYLE
  5
11
330
3
100
AcDbSymbolTableRecord
100
AcDbTextStyleTableRecord
  2
Standard
 70
     0
 40
0.0
 41
1.0
 50
0.0
 71
     0
 42
3.5
  3
txt
  4

  0
ENDTAB
  0
TABLE
  2
VIEW
  5
6
330
0
100
AcDbSymbolTable
 70
     0
  0
ENDTAB
  0
TABLE
  2
UCS
  5
7
330
0
100
AcDbSymbolTable
 70
     0
  0
ENDTAB
  0
TABLE
  2
APPID
  5
9
330
0
100
AcDbSymbolTable
 70
     1
  0
APPID
  5
12
330
9
100
AcDbSymbolTableRecord
100
AcDbRegAppTableRecord
  2
ACAD
 70
     0
  0
ENDTAB
  0
TABLE
  2
DIMSTYLE
  5
A
330
0
100
AcDbSymbolTable
 70
     1
100
AcDbDimStyleTable
  0
DIMSTYLE
105
27
330
A
100
AcDbSymbolTableRecord
100
AcDbDimStyleTableRecord
  2
ISO-25
 70
     0
 41
2.5
 42
0.625
 43
3.75
 44
1.25
 73
     0
 74
     0
 77
     1
 78
     8
140
2.5
141
2.5
143
0.0393700787
147
0.625
171
     3
172
     1
178
     0
271
     2
272
     2
274
     3
278
    44
283
     0
284
     8
340
11
  0
ENDTAB
  0
TABLE
  2
BLOCK_RECORD
  5
1
330
0
100
AcDbSymbolTable
 70
     3
  0
BLOCK_RECORD
  5
1F
330
1
100
AcDbSymbolTableRecord
100
AcDbBlockTableRecord
  2
*Model_Space
340
22
  0
BLOCK_RECORD
  5
1B
330
1
100
AcDbSymbolTableRecord
100
AcDbBlockTableRecord
  2
*Paper_Space
340
1E
  0
BLOCK_RECORD
  5
23
330
1
100
AcDbSymbolTableRecord
100
AcDbBlockTableRecord
  2
*Paper_Space0
340
26
  0
BLOCK_RECORD
  5
88
330
1
100
AcDbSymbolTableRecord
100
AcDbBlockTableRecord
  2
SW_CENTERMARKSYMBOL_0
340
0
102
{BLKREFS
331
93
102
}
  0
BLOCK_RECORD
  5
B2
330
1
100
AcDbSymbolTableRecord
100
AcDbBlockTableRecord
  2
SW_CENTERMARKSYMBOL_1
340
0
102
{BLKREFS
331
BD
102
}
  0
ENDTAB
  0
ENDSEC
  0
SECTION
  2
BLOCKS
  0
BLOCK
  5
20
330
1F
100
AcDbEntity
  8
0
100
AcDbBlockBegin
  2
*Model_Space
 70
     0
 10
0.0
 20
0.0
 30
0.0
  3
*Model_Space
  1

  0
ENDBLK
  5
21
330
1F
100
AcDbEntity
  8
0
100
AcDbBlockEnd
  0
BLOCK
  5
1C
330
1B
100
AcDbEntity
 67
     1
  8
0
100
AcDbBlockBegin
  2
*Paper_Space
 70
     0
 10
0.0
 20
0.0
 30
0.0
  3
*Paper_Space
  1

  0
ENDBLK
  5
1D
330
1B
100
AcDbEntity
 67
     1
  8
0
100
AcDbBlockEnd
  0
BLOCK
  5
24
330
23
100
AcDbEntity
  8
0
100
AcDbBlockBegin
  2
*Paper_Space0
 70
     0
 10
0.0
 20
0.0
 30
0.0
  3
*Paper_Space0
  1

  0
ENDBLK
  5
25
330
23
100
AcDbEntity
  8
0
100
AcDbBlockEnd
  0
BLOCK
  5
89
330
88
100
AcDbEntity
  8
0
100
AcDbBlockBegin
  2
SW_CENTERMARKSYMBOL_0
 70
     0
 10
0.0
 20
0.0
 30
0.0
  3
SW_CENTERMARKSYMBOL_0
  1

  0
LINE
  5
8B
330
88
100
AcDbEntity
  8
FORMAT
 62
     0
100
AcDbLine
 10
0.0
 20
0.0
 30
0.0
 11
0.0
 21
2.5
 31
0.0
  0
LINE
  5
8C
330
88
100
AcDbEntity
  8
FORMAT
 62
     0
100
AcDbLine
 10
0.0
 20
0.0
 30
0.0
 11
-2.5
 21
0.0
 31
0.0
  0
LINE
  5
8D
330
88
100
AcDbEntity
  8
FORMAT
 62
     0
100
AcDbLine
 10
0.0
 20
0.0
 30
0.0
 11
0.0
 21
-2.5
 31
0.0
  0
LINE
  5
8E
330
88
100
AcDbEntity
  8
FORMAT
 62
     0
100
AcDbLine
 10
0.0
 20
0.0
 30
0.0
 11
2.5
 21
0.0
 31
0.0
  0
LINE
  5
8F
330
88
100
AcDbEntity
  8
FORMAT
 62
     0
100
AcDbLine
 10
0.0
 20
5.0
 30
0.0
 11
0.0
 21
72.5
 31
0.0
  0
LINE
  5
90
330
88
100
AcDbEntity
  8
FORMAT
 62
     0
100
AcDbLine
 10
-5.0
 20
0.0
 30
0.0
 11
-72.5
 21
0.0
 31
0.0
  0
LINE
  5
91
330
88
100
AcDbEntity
  8
FORMAT
 62
     0
100
AcDbLine
 10
0.0
 20
-5.0
 30
0.0
 11
0.0
 21
-74.6675189998
 31
0.0
  0
LINE
  5
92
330
88
100
AcDbEntity
  8
FORMAT
 62
     0
100
AcDbLine
 10
5.0
 20
0.0
 30
0.0
 11
72.5
 21
0.0
 31
0.0
  0
ENDBLK
  5
8A
330
88
100
AcDbEntity
  8
0
100
AcDbBlockEnd
  0
BLOCK
  5
B3
330
B2
100
AcDbEntity
  8
0
100
AcDbBlockBegin
  2
SW_CENTERMARKSYMBOL_1
 70
     0
 10
0.0
 20
0.0
 30
0.0
  3
SW_CENTERMARKSYMBOL_1
  1

  0
LINE
  5
B5
330
B2
100
AcDbEntity
  8
FORMAT
 62
     0
100
AcDbLine
 10
0.0
 20
0.0
 30
0.0
 11
0.0
 21
2.5
 31
0.0
  0
LINE
  5
B6
330
B2
100
AcDbEntity
  8
FORMAT
 62
     0
100
AcDbLine
 10
0.0
 20
0.0
 30
0.0
 11
-2.5
 21
0.0
 31
0.0
  0
LINE
  5
B7
330
B2
100
AcDbEntity
  8
FORMAT
 62
     0
100
AcDbLine
 10
0.0
 20
0.0
 30
0.0
 11
0.0
 21
-2.5
 31
0.0
  0
LINE
  5
B8
330
B2
100
AcDbEntity
  8
FORMAT
 62
     0
100
AcDbLine
 10
0.0
 20
0.0
 30
0.0
 11
2.5
 21
0.0
 31
0.0
  0
LINE
  5
B9
330
B2
100
AcDbEntity
  8
FORMAT
 62
     0
100
AcDbLine
 10
0.0
 20
5.0
 30
0.0
 11
0.0
 21
57.5
 31
0.0
  0
LINE
  5
BA
330
B2
100
AcDbEntity
  8
FORMAT
 62
     0
100
AcDbLine
 10
-5.0
 20
0.0
 30
0.0
 11
-57.5
 21
0.0
 31
0.0
  0
LINE
  5
BB
330
B2
100
AcDbEntity
  8
FORMAT
 62
     0
100
AcDbLine
 10
0.0
 20
-5.0
 30
0.0
 11
0.0
 21
-57.5
 31
0.0
  0
LINE
  5
BC
330
B2
100
AcDbEntity
  8
FORMAT
 62
     0
100
AcDbLine
 10
5.0
 20
0.0
 30
0.0
 11
57.5
 21
0.0
 31
0.0
  0
ENDBLK
  5
B4
330
B2
100
AcDbEntity
  8
0
100
AcDbBlockEnd
  0
ENDSEC
  0
SECTION
  2
ENTITIES
  0
LINE
  5
83
330
1F
100
AcDbEntity
  8
0
  6
Continuous
 62
     7
370
    25
100
AcDbLine
 10
125.5940762174
 20
60.4307205058
 30
0.0
 11
261.177724087
 21
60.4307205058
 31
0.0
  0
LINE
  5
84
330
1F
100
AcDbEntity
  8
0
  6
Continuous
 62
     7
370
    25
100
AcDbLine
 10
261.177724087
 20
170.4307205058
 30
0.0
 11
125.5978499719
 21
170.4307205058
 31
0.0
  0
CIRCLE
  5
85
330
1F
100
AcDbEntity
  8
0
  6
Continuous
 62
     7
370
    25
100
AcDbCircle
 10
82.177724087
 20
115.4307205058
 30
0.0
 40
57.29999999999998
  0
CIRCLE
  5
86
330
1F
100
AcDbEntity
  8
0
  6
Continuous
 62
     7
370
    25
100
AcDbCircle
 10
82.177724087
 20
115.4307205058
 30
0.0
 40
70.0
  0
LINE
  5
87
330
1F
100
AcDbEntity
  8
0
  6
Continuous
 62
     7
370
    25
100
AcDbLine
 10
261.177724087
 20
170.4307205058
 30
0.0
 11
261.177724087
 21
60.4307205058
 31
0.0
  0
INSERT
  5
93
330
1F
100
AcDbEntity
  8
FORMAT
100
AcDbBlockReference
  2
SW_CENTERMARKSYMBOL_0
 10
82.177724087
 20
115.4307205058
 30
0.0
  0
LINE
  5
94
330
1F
100
AcDbEntity
  8
0
  6
Continuous
 62
     7
370
    25
100
AcDbLine
 10
12.177724087
 20
-26.4862517083
 30
0.0
 11
12.177724087
 21
-406.4862517083
 31
0.0
  0
LINE
  5
95
330
1F
100
AcDbEntity
  8
0
  6
Continuous
 62
     7
370
    25
100
AcDbLine
 10
152.177724087
 20
-161.4880898069
 30
0.0
 11
152.177724087
 21
-26.4862517083
 31
0.0
  0
LINE
  5
96
330
1F
100
AcDbEntity
  8
0
  6
Continuous
 62
     7
370
    25
100
AcDbLine
 10
152.177724087
 20
-406.4862517083
 30
0.0
 11
152.177724087
 21
-271.4862517083
 31
0.0
  0
LINE
  5
97
330
1F
100
AcDbEntity
  8
0
  6
Continuous
 62
     7
370
    25
100
AcDbLine
 10
152.177724087
 20
-271.4862517083
 30
0.0
 11
261.177724087
 21
-271.4862517083
 31
0.0
  0
LINE
  5
98
330
1F
100
AcDbEntity
  8
0
  6
Continuous
 62
     7
370
    25
100
AcDbLine
 10
261.177724087
 20
-161.4862517083
 30
0.0
 11
152.1762805498
 21
-161.4862517083
 31
0.0
  0
LWPOLYLINE
  5
99
330
1F
100
AcDbEntity
  8
0
  6
Continuous
 62
     7
370
    25
100
AcDbPolyline
 90
       35
 70
   128
 43
0.0
 10
152.1762798534
 20
-161.4880898069
 10
152.0662594105
 20
-161.6281145199
 10
151.7302875247
 20
-162.0568563345
 10
150.575822436
 20
-163.5400539434
 10
148.7398477368
 20
-165.9341369674
 10
146.2227694132
 20
-169.2976107994
 10
143.1919758368
 20
-173.50091797
 10
141.265097795
 20
-176.2825984104
 10
139.2673794114
 20
-179.2810270072
 10
137.1908419982
 20
-182.5529169963
 10
135.1159205292
 20
-186.0321445543
 10
133.1828344695
 20
-189.5316258193
 10
131.3355100652
 20
-193.2163586644
 10
129.5859614139
 20
-197.1845504644
 10
128.0493203753
 20
-201.3467885064
 10
126.4668945052
 20
-207.184068291
 10
125.5865770738
 20
-213.4319895016
 10
125.5933048965
 20
-219.6346889431
 10
126.4991625942
 20
-225.9408755159
 10
127.4064538672
 20
-229.5481395987
 10
128.5350065608
 20
-233.0391257292
 10
131.3611006456
 20
-239.8101563923
 10
133.5927561086
 20
-244.2093127747
 10
135.9342232454
 20
-248.3415684037
 10
138.3777001517
 20
-252.3120009281
 10
140.7920498114
 20
-255.9911777319
 10
143.0746511525
 20
-259.3051759532
 10
145.2158683824
 20
-262.298997055
 10
147.2287429153
 20
-265.0316410349
 10
148.9721207837
 20
-267.343811914
 10
150.7728947586
 20
-269.6867915501
 10
151.4298082417
 20
-270.531208876
 10
151.8868454377
 20
-271.1155625175
 10
152.177724087
 20
-271.4862517083
 10
152.177724087
 20
-271.4862517083
  0
LINE
  5
9A
330
1F
100
AcDbEntity
  8
0
  6
Continuous
 62
     7
370
    25
100
AcDbLine
 10
152.177724087
 20
-406.4862517083
 30
0.0
 11
12.177724087
 21
-406.4862517083
 31
0.0
  0
LINE
  5
9B
330
1F
100
AcDbEntity
  8
0
  6
Continuous
 62
     7
370
    25
100
AcDbLine
 10
152.177724087
 20
-26.4862517083
 30
0.0
 11
12.177724087
 21
-26.4862517083
 31
0.0
  0
LINE
  5
9C
330
1F
100
AcDbEntity
  8
0
  6
Continuous
 62
     7
370
    25
100
AcDbLine
 10
261.177724087
 20
-161.4862517083
 30
0.0
 11
261.177724087
 21
-271.4862517083
 31
0.0
  0
LINE
  5
9D
330
1F
100
AcDbEntity
  8
0
  6
Continuous
 62
     7
370
    25
100
AcDbLine
 10
152.177724087
 20
481.8439903131
 30
0.0
 11
152.177724087
 21
616.8439903131
 31
0.0
  0
LINE
  5
9E
330
1F
100
AcDbEntity
  8
0
  6
Continuous
 62
     7
370
    25
100
AcDbLine
 10
152.177724087
 20
236.8439903131
 30
0.0
 11
152.177724087
 21
371.8458152902
 31
0.0
  0
LINE
  5
9F
330
1F
100
AcDbEntity
  8
0
  6
Continuous
 62
     7
370
    25
100
AcDbLine
 10
12.177724087
 20
616.8439903131
 30
0.0
 11
12.177724087
 21
236.8439903131
 31
0.0
  0
LINE
  5
A0
330
1F
100
AcDbEntity
  8
0
  6
Continuous
 62
     7
370
    25
100
AcDbLine
 10
152.1762915503
 20
371.8439903131
 30
0.0
 11
261.177724087
 21
371.8439903131
 31
0.0
  0
LINE
  5
A1
330
1F
100
AcDbEntity
  8
0
  6
Continuous
 62
     7
370
    25
100
AcDbLine
 10
261.177724087
 20
481.8439903131
 30
0.0
 11
152.177724087
 21
481.8439903131
 31
0.0
  0
SPLINE
  5
A2
330
1F
100
AcDbEntity
  8
0
  6
Continuous
 62
     7
370
    25
100
AcDbSpline
210
0.0
220
0.0
230
1.0
 70
     8
 71
     3
 72
    43
 73
    39
 74
     0
 42
0.000000001
 43
0.00000001
 40
0.0
 40
0.0
 40
0.0
 40
0.0
 40
0.021399714232961
 40
0.0429745175445888
 40
0.0650883662445481
 40
0.0873800309323234
 40
0.1087757316164224
 40
0.1303088529630429
 40
0.1742588736742495
 40
0.2028796687646407
 40
0.2317167434877933
 40
0.2611742466837687
 40
0.2908254297443554
 40
0.3198482626890456
 40
0.3490565847140377
 40
0.3789196033374942
 40
0.4090678565682896
 40
0.4432468379091889
 40
0.4782566349225007
 40
0.5124938169179475
 40
0.5479168426679005
 40
0.5681439660774131
 40
0.5885350816111461
 40
0.6302619058127935
 40
0.6596105906764106
 40
0.6891775592562333
 40
0.7193640378373448
 40
0.7497520799164673
 40
0.7795583954436519
 40
0.8095842358594271
 40
0.8403860718027905
 40
0.8715029332856636
 40
0.9138165000200602
 40
0.93548893319674
 40
0.9573253669497291
 40
0.9784391623277564
 40
0.9997197759680987
 40
1.0
 40
1.0
 40
1.0
 40
1.0
 10
152.1777240870025
 20
481.8439903130882
 30
0.0
 10
152.1566963371906
 20
481.8172406190098
 30
0.0
 10
152.1144687918421
 20
481.7635223690849
 30
0.0
 10
151.7715076393856
 20
481.3264211070749
 30
0.0
 10
151.2213949104676
 20
480.6224377036725
 30
0.0
 10
150.4595993940767
 20
479.6415065495612
 30
0.0
 10
149.5182318116978
 20
478.4190266386021
 30
0.0
 10
148.0424679483537
 20
476.482081656948
 30
0.0
 10
146.1161988937993
 20
473.9063248229025
 30
0.0
 10
143.7608695675448
 20
470.6490301234941
 30
0.0
 10
141.5970057032208
 20
467.5565368843189
 30
0.0
 10
139.3074972815526
 20
464.1434284295294
 30
0.0
 10
136.9632254002092
 20
460.4516390321563
 30
0.0
 10
134.6321092838084
 20
456.5113261305214
 30
0.0
 10
132.3639474461998
 20
452.306436461817
 30
0.0
 10
130.214239200729
 20
447.7831677568807
 30
0.0
 10
128.2082033994093
 20
442.7213601179546
 30
0.0
 10
126.5378755408632
 20
437.0647958580204
 30
0.0
 10
125.5142038411173
 20
430.8785249394638
 30
0.0
 10
125.3863280891735
 20
424.4782461198542
 30
0.0
 10
126.0842832072343
 20
419.0510244540055
 30
0.0
 10
127.1287783986932
 20
414.6225398930141
 30
0.0
 10
128.5594084637717
 20
409.9744502543556
 30
0.0
 10
130.5584690271873
 20
405.0840507983981
 30
0.0
 10
133.042887232112
 20
400.0737460630021
 30
0.0
 10
135.3658197253186
 20
395.8986815118888
 30
0.0
 10
137.7662016733222
 20
391.9433033097087
 30
0.0
 10
140.1587906613303
 20
388.254894177945
 30
0.0
 10
142.4747169797361
 20
384.8617740982676
 30
0.0
 10
144.6752969722669
 20
381.7625592901817
 30
0.0
 10
146.7231186656895
 20
378.9677044179261
 30
0.0
 10
148.7656073515165
 20
376.2481683305694
 30
0.0
 10
150.259218015863
 20
374.3043651391152
 30
0.0
 10
151.2386458371692
 20
373.0434150866116
 30
0.0
 10
151.782442996386
 20
372.3476430349583
 30
0.0
 10
152.0866730821144
 20
371.9598391467806
 30
0.0
 10
152.2134839693266
 20
371.7984556733402
 30
0.0
 10
152.1767680610564
 20
371.845207659313
 30
0.0
 10
152.1762908681009
 20
371.8458152901577
 30
0.0
  0
LINE
  5
A3
330
1F
100
AcDbEntity
  8
0
  6
Continuous
 62
     7
370
    25
100
AcDbLine
 10
12.177724087
 20
616.8439903131
 30
0.0
 11
152.177724087
 21
616.8439903131
 31
0.0
  0
LINE
  5
A4
330
1F
100
AcDbEntity
  8
0
  6
Continuous
 62
     7
370
    25
100
AcDbLine
 10
12.177724087
 20
236.8439903131
 30
0.0
 11
152.177724087
 21
236.8439903131
 31
0.0
  0
LINE
  5
A5
330
1F
100
AcDbEntity
  8
0
  6
Continuous
 62
     7
370
    25
100
AcDbLine
 10
261.177724087
 20
481.8439903131
 30
0.0
 11
261.177724087
 21
371.8439903131
 31
0.0
  0
LINE
  5
A6
330
1F
100
AcDbEntity
  8
0
  6
Continuous
 62
     7
370
    25
100
AcDbLine
 10
326.9298903571
 20
45.4307205058
 30
0.0
 11
706.9298903571
 21
45.4307205058
 31
0.0
  0
LINE
  5
A7
330
1F
100
AcDbEntity
  8
0
  6
Continuous
 62
     7
370
    25
100
AcDbLine
 10
706.9298903571
 20
185.4307205058
 30
0.0
 11
326.9298903571
 21
185.4307205058
 31
0.0
  0
LINE
  5
A8
330
1F
100
AcDbEntity
  8
0
  6
Continuous
 62
     7
370
    25
100
AcDbLine
 10
706.9298903571
 20
185.4307205058
 30
0.0
 11
706.9298903571
 21
45.4307205058
 31
0.0
  0
LINE
  5
A9
330
1F
100
AcDbEntity
  8
0
  6
Continuous
 62
     7
370
    25
100
AcDbLine
 10
326.9298903571
 20
185.4307205058
 30
0.0
 11
326.9298903571
 21
45.4307205058
 31
0.0
  0
LINE
  5
AA
330
1F
100
AcDbEntity
  8
0
  6
Continuous
 62
     7
370
    25
100
AcDbLine
 10
-42.130761424
 20
185.4307205058
 30
0.0
 11
-422.130761424
 21
185.4307205058
 31
0.0
  0
LINE
  5
AB
330
1F
100
AcDbEntity
  8
0
  6
Continuous
 62
     7
370
    25
100
AcDbLine
 10
-422.130761424
 20
45.4307205058
 30
0.0
 11
-42.130761424
 21
45.4307205058
 31
0.0
  0
CIRCLE
  5
AC
330
1F
100
AcDbEntity
  8
0
  6
Continuous
 62
     7
370
    25
100
AcDbCircle
 10
-232.130761424
 20
115.4307205058
 30
0.0
 40
45.0
  0
CIRCLE
  5
AD
330
1F
100
AcDbEntity
  8
0
  6
Continuous
 62
     7
370
    25
100
AcDbCircle
 10
-232.130761424
 20
115.4307205058
 30
0.0
 40
55.00000000000003
  0
LINE
  5
AE
330
1F
100
AcDbEntity
  8
0
  6
Continuous
 62
     7
370
    25
100
AcDbLine
 10
-422.130761424
 20
115.4307205058
 30
0.0
 11
-422.130761424
 21
185.4307205058
 31
0.0
  0
LINE
  5
AF
330
1F
100
AcDbEntity
  8
0
  6
Continuous
 62
     7
370
    25
100
AcDbLine
 10
-422.130761424
 20
45.4307205058
 30
0.0
 11
-422.130761424
 21
115.4307205058
 31
0.0
  0
LINE
  5
B0
330
1F
100
AcDbEntity
  8
0
  6
Continuous
 62
     7
370
    25
100
AcDbLine
 10
-42.130761424
 20
115.4307205058
 30
0.0
 11
-42.130761424
 21
185.4307205058
 31
0.0
  0
LINE
  5
B1
330
1F
100
AcDbEntity
  8
0
  6
Continuous
 62
     7
370
    25
100
AcDbLine
 10
-42.130761424
 20
45.4307205058
 30
0.0
 11
-42.130761424
 21
115.4307205058
 31
0.0
  0
INSERT
  5
BD
330
1F
100
AcDbEntity
  8
FORMAT
100
AcDbBlockReference
  2
SW_CENTERMARKSYMBOL_1
 10
-232.130761424
 20
115.4307205058
 30
0.0
  0
LINE
  5
BE
330
1F
100
AcDbEntity
  8
0
  6
Continuous
 62
     7
370
    25
100
AcDbLine
 10
505.0551812876
 20
-107.4107595749
 30
0.0
 11
390.7008293949
 21
-41.3953974038
 31
0.0
  0
LINE
  5
BF
330
1F
100
AcDbEntity
  8
0
  6
Continuous
 62
     7
370
    25
100
AcDbLine
 10
659.4014062458
 20
-196.5129386501
 30
0.0
 11
615.0641214242
 21
-170.9175689353
 31
0.0
  0
LINE
  5
C0
330
1F
100
AcDbEntity
  8
0
  6
Continuous
 62
     7
370
    25
100
AcDbLine
 10
320.7065181104
 20
-162.6422381371
 30
0.0
 11
589.4070949613
 21
-317.7597793834
 31
0.0
  0
LINE
  5
C1
330
1F
100
AcDbEntity
  8
0
  6
Continuous
 62
     7
370
    25
100
AcDbLine
 10
558.7020866815
 20
-203.4546790204
 30
0.0
 11
644.123841158
 21
-154.1417498164
 31
0.0
  0
LINE
  5
C2
330
1F
100
AcDbEntity
  8
0
  6
Continuous
 62
     7
370
    25
100
AcDbLine
 10
589.128310863
 20
-58.8763749545
 30
0.0
 11
503.7058034363
 21
-108.1897388275
 31
0.0
  0
SPLINE
  5
C3
330
1F
100
AcDbEntity
  8
0
  6
Continuous
 62
     7
370
    25
100
AcDbSpline
210
0.0
220
0.0
230
1.0
 70
     8
 71
     3
 72
    34
 73
    30
 74
     0
 42
0.000000001
 43
0.00000001
 40
0.0
 40
0.0
 40
0.0
 40
0.0
 40
0.0284379426025567
 40
0.0571085599555918
 40
0.0864955112580742
 40
0.1161187610830641
 40
0.144551370106353
 40
0.1731665965641856
 40
0.2315714964035204
 40
0.2696054869119751
 40
0.3079268900333094
 40
0.3470727765616206
 40
0.3864760430162772
 40
0.4250442990434276
 40
0.4638590503163368
 40
0.5035438236879778
 40
0.5436076434947005
 40
0.5890278719615486
 40
0.6355521660317113
 40
0.6810497369740447
 40
0.7281231680544684
 40
0.7550028622537756
 40
0.782100484532172
 40
0.8375509928294146
 40
0.8765522713757676
 40
0.915843625748599
 40
0.9559582429774937
 40
0.9963407166424512
 40
1.0
 40
1.0
 40
1.0
 40
1.0
 10
500.6605638958993
 20
-128.5520814046449
 30
0.0
 10
500.6646099214917
 20
-129.6346952885685
 30
0.0
 10
500.6727350766183
 20
-131.8087808320581
 30
0.0
 10
500.7393021864652
 20
-135.3343335683878
 30
0.0
 10
500.8481051838189
 20
-139.0442607184342
 30
0.0
 10
501.0030574792506
 20
-142.8669388710782
 30
0.0
 10
501.2018339130647
 20
-146.7379727978694
 30
0.0
 10
501.5279382091771
 20
-151.9642924806049
 30
0.0
 10
501.9871954223517
 20
-157.6915960849281
 30
0.0
 10
502.6249812541083
 20
-163.8091948696499
 30
0.0
 10
503.2816213822613
 20
-168.9845106491879
 30
0.0
 10
504.076126585074
 20
-174.1150245021191
 30
0.0
 10
505.0289653582345
 20
-179.1178122040517
 30
0.0
 10
506.1668393180404
 20
-183.9387627958632
 30
0.0
 10
507.5363126980724
 20
-188.5720853838613
 30
0.0
 10
509.2146734046636
 20
-193.0181585061648
 30
0.0
 10
511.3754303526852
 20
-197.384521756209
 30
0.0
 10
514.1941253145351
 20
-201.5208805754578
 30
0.0
 10
517.8446335663267
 20
-205.1284869427028
 30
0.0
 10
522.2798947738572
 20
-207.8744677522654
 30
0.0
 10
526.6110407231408
 20
-209.3562466533104
 30
0.0
 10
530.4810403348481
 20
-210.036772010832
 30
0.0
 10
534.7792635629115
 20
-210.3545041370736
 30
0.0
 10
539.6514058529949
 20
-210.0540128913813
 30
0.0
 10
544.9492658667104
 20
-209.0387804916949
 30
0.0
 10
549.549938986659
 20
-207.7032808564703
 30
0.0
 10
554.0215463646431
 20
-205.8977350922392
 30
0.0
 10
557.0937603193252
 20
-204.4530460686485
 30
0.0
 10
558.5698248776977
 20
-203.5166043540893
 30
0.0
 10
558.692466180822
 20
-203.4387985213281
 30
0.0
  0
SPLINE
  5
C4
330
1F
100
AcDbEntity
  8
0
  6
Continuous
 62
     7
370
    25
100
AcDbSpline
210
0.0
220
0.0
230
1.0
 70
     8
 71
     3
 72
    16
 73
    12
 74
     0
 42
0.000000001
 43
0.00000001
 40
0.0
 40
0.0
 40
0.0
 40
0.0
 40
0.0215793622082994
 40
0.1428975438810607
 40
0.2651506792597667
 40
0.3907389418642728
 40
0.5176912223871614
 40
0.6856997005921339
 40
0.7717453114283748
 40
0.8584344794490671
 40
1.0
 40
1.0
 40
1.0
 40
1.0
 10
503.7220553347391
 20
-108.219057202085
 30
0.0
 10
503.6695389015003
 20
-108.2370985412632
 30
0.0
 10
503.321777496377
 20
-108.3565674593899
 30
0.0
 10
502.8263918535235
 20
-109.0005115847857
 30
0.0
 10
502.2077373514878
 20
-110.2160121287385
 30
0.0
 10
501.7091137829573
 20
-112.003594499397
 30
0.0
 10
501.2628897454646
 20
-114.6105277869847
 30
0.0
 10
500.9740583998432
 20
-117.6466628999744
 30
0.0
 10
500.80065686322
 20
-120.8729200094628
 30
0.0
 10
500.6879527978539
 20
-124.1347773638408
 30
0.0
 10
500.671048244961
 20
-126.8611571918988
 30
0.0
 10
500.6605638958993
 20
-128.5520814046449
 30
0.0
  0
LWPOLYLINE
  5
C5
330
1F
100
AcDbEntity
  8
0
  6
Continuous
 62
     7
370
    25
100
AcDbPolyline
 90
       93
 70
   128
 43
0.0
 10
405.2011484357
 20
-73.4445338566
 10
405.0857583977
 20
-69.6105570147
 10
404.7401262855
 20
-65.9276824446
 10
404.1658635953
 20
-62.4130814078
 10
403.365647805
 20
-59.0831405967
 10
402.3432098901
 20
-55.9533857325
 10
401.1033169279
 20
-53.0384091771
 10
399.651749872
 20
-50.3518018969
 10
397.9952765979
 20
-47.9060900951
 10
396.1416203488
 20
-45.7126768092
 10
394.0994237257
 20
-43.7817887445
 10
391.878208392
 20
-42.1224285924
 10
389.488330679
 20
-40.7423330559
 10
386.9409332997
 20
-39.6479367776
 10
384.2478933968
 20
-38.8443423381
 10
381.4217671653
 20
-38.3352964655
 10
378.4757313103
 20
-38.1231725668
 10
375.423521611
 20
-38.2089596614
 10
372.279368878
 20
-38.5922577704
 10
369.0579326026
 20
-39.2712797811
 10
365.7742326078
 20
-40.2428597792
 10
362.443579019
 20
-41.5024678105
 10
359.0815008805
 20
-43.0442310008
 10
355.7036737527
 20
-44.8609609384
 10
352.3258466248
 20
-46.9441871897
 10
348.9637684863
 20
-49.2841967923
 10
345.6331148975
 20
-51.8700795411
 10
342.3494149027
 20
-54.6897788572
 10
339.1279786274
 20
-57.7301480007
 10
335.9838258943
 20
-60.9770113671
 10
332.931616195
 20
-64.4152305807
 10
329.9855803401
 20
-68.0287750762
 10
327.1594541086
 20
-71.8007968413
 10
324.4664142056
 20
-75.7137089691
 10
321.9190168263
 20
-79.7492676571
 10
319.5291391133
 20
-83.8886572678
 10
317.3079237797
 20
-88.1125780559
 10
315.2657271566
 20
-92.401336153
 10
313.4120709074
 20
-96.734935389
 10
311.7555976333
 20
-101.0931705239
 10
310.3040305774
 20
-105.4557214534
 10
309.0641376152
 20
-109.8022479515
 10
308.0416997003
 20
-114.1124845051
 10
307.24148391
 20
-118.3663348016
 10
306.6672212199
 20
-122.5439654275
 10
306.3215891076
 20
-126.6258983402
 10
306.2061990696
 20
-130.5931016842
 10
306.3215891076
 20
-134.4270785262
 10
306.6672212199
 20
-138.1099530962
 10
307.24148391
 20
-141.624554133
 10
308.0416997003
 20
-144.9544949441
 10
309.0641376152
 20
-148.0842498083
 10
310.3040305774
 20
-150.9992263637
 10
311.7555976333
 20
-153.6858336439
 10
313.4120709074
 20
-156.1315454457
 10
315.2657271566
 20
-158.3249587316
 10
317.3079237797
 20
-160.2558467963
 10
319.5291391133
 20
-161.9152069484
 10
321.9190168264
 20
-163.2953024849
 10
324.4664142056
 20
-164.3896987632
 10
327.1594541086
 20
-165.1932932028
 10
329.9855803401
 20
-165.7023390753
 10
332.931616195
 20
-165.914462974
 10
335.9838258943
 20
-165.8286758794
 10
339.1279786274
 20
-165.4453777704
 10
342.3494149027
 20
-164.7663557598
 10
345.6331148975
 20
-163.7947757616
 10
348.9637684863
 20
-162.5351677303
 10
352.3258466248
 20
-160.99340454
 10
355.7036737527
 20
-159.1766746024
 10
359.0815008805
 20
-157.0934483511
 10
362.443579019
 20
-154.7534387486
 10
365.7742326078
 20
-152.1675559997
 10
369.0579326026
 20
-149.3478566836
 10
372.279368878
 20
-146.3074875401
 10
375.423521611
 20
-143.0606241737
 10
378.4757313103
 20
-139.6224049602
 10
381.4217671653
 20
-136.0088604646
 10
384.2478933968
 20
-132.2368386995
 10
386.9409332997
 20
-128.3239265717
 10
389.488330679
 20
-124.2883678837
 10
391.878208392
 20
-120.148978273
 10
394.0994237257
 20
-115.9250574849
 10
396.1416203488
 20
-111.6362993878
 10
397.9952765979
 20
-107.3027001518
 10
399.651749872
 20
-102.944465017
 10
401.1033169279
 20
-98.5819140874
 10
402.3432098901
 20
-94.2353875893
 10
403.365647805
 20
-89.9251510358
 10
404.1658635953
 20
-85.6713007392
 10
404.7401262855
 20
-81.4936701133
 10
405.0857583977
 20
-77.4117372006
 10
405.2011484357
 20
-73.4445338566
  0
LWPOLYLINE
  5
C6
330
1F
100
AcDbEntity
  8
0
  6
Continuous
 62
     7
370
    25
100
AcDbPolyline
 90
       13
 70
   128
 43
0.0
 10
673.9017252866
 20
-228.5620751029
 10
673.7863352486
 20
-224.728098261
 10
673.4407031363
 20
-221.0452236909
 10
672.8664404462
 20
-217.5306226541
 10
672.0662246559
 20
-214.200681843
 10
671.043786741
 20
-211.0709269788
 10
669.8038937788
 20
-208.1559504234
 10
668.3523267229
 20
-205.4693431432
 10
666.6958534488
 20
-203.0236313414
 10
664.8421971997
 20
-200.8302180555
 10
662.8000005765
 20
-198.8993299908
 10
660.5787852429
 20
-197.2399698387
 10
659.4014062458
 20
-196.5129386501
  0
LWPOLYLINE
  5
C7
330
1F
100
AcDbEntity
  8
0
  6
Continuous
 62
     7
370
    25
100
AcDbPolyline
 90
       36
 70
   128
 43
0.0
 10
589.4070949613
 20
-317.7597793834
 10
590.6195936772
 20
-318.4128437312
 10
593.1669910565
 20
-319.5072400095
 10
595.8600309594
 20
-320.3108344491
 10
598.6861571909
 20
-320.8198803216
 10
601.6321930459
 20
-321.0320042204
 10
604.6844027452
 20
-320.9462171257
 10
607.8285554782
 20
-320.5629190167
 10
611.0499917536
 20
-319.8838970061
 10
614.3336917484
 20
-318.9123170079
 10
617.6643453372
 20
-317.6527089766
 10
621.0264234757
 20
-316.1109457863
 10
624.4042506035
 20
-314.2942158487
 10
627.7820777314
 20
-312.2109895974
 10
631.1441558699
 20
-309.8709799949
 10
634.4748094587
 20
-307.285097246
 10
637.7585094535
 20
-304.4653979299
 10
640.9799457289
 20
-301.4250287865
 10
644.1240984619
 20
-298.17816542
 10
647.1763081612
 20
-294.7399462065
 10
650.1223440161
 20
-291.1264017109
 10
652.9484702476
 20
-287.3543799459
 10
655.6415101506
 20
-283.441467818
 10
658.1889075299
 20
-279.40590913
 10
660.5787852429
 20
-275.2665195194
 10
662.8000005766
 20
-271.0425987312
 10
664.8421971997
 20
-266.7538406341
 10
666.6958534488
 20
-262.4202413981
 10
668.3523267229
 20
-258.0620062633
 10
669.8038937788
 20
-253.6994553337
 10
671.043786741
 20
-249.3529288356
 10
672.0662246559
 20
-245.0426922821
 10
672.8664404462
 20
-240.7888419855
 10
673.4407031363
 20
-236.6112113596
 10
673.7863352486
 20
-232.5292784469
 10
673.9017252866
 20
-228.5620751029
  0
LWPOLYLINE
  5
C8
330
1F
100
AcDbEntity
  8
0
  6
Continuous
 62
     7
370
    25
100
AcDbPolyline
 90
       84
 70
   128
 43
0.0
 10
396.2208923146
 20
-78.6287253667
 10
396.1048528353
 20
-75.1572117637
 10
395.7573990609
 20
-71.8395590073
 10
395.1805211751
 20
-68.6947703121
 10
394.3775234823
 20
-65.740858743
 10
393.3530054805
 20
-62.9947440378
 10
392.1128355161
 20
-60.472155693
 10
390.6641171703
 20
-58.1875428662
 10
389.0151485705
 20
-56.1539916127
 10
387.1753748597
 20
-54.3831499299
 10
385.155334095
 20
-52.8851610386
 10
382.966596887
 20
-51.6686052836
 10
380.6217001242
 20
-50.7404509861
 10
378.1340751629
 20
-50.1060145297
 10
375.5179708936
 20
-49.7689299091
 10
372.7883721246
 20
-49.7311279145
 10
369.9609137506
 20
-49.9928250723
 10
367.0517911969
 20
-50.5525224047
 10
364.0776676542
 20
-51.4070140163
 10
361.0555786328
 20
-52.5514054564
 10
358.0028343849
 20
-53.9791417545
 10
354.9369207531
 20
-55.6820449664
 10
351.8753990131
 20
-57.6503610167
 10
348.8358052841
 20
-59.8728155693
 10
345.8355500837
 20
-62.3366786058
 10
342.891818602
 20
-65.0278373419
 10
340.0214722664
 20
-67.9308770639
 10
337.2409521608
 20
-71.0291694234
 10
334.5661848524
 20
-74.3049676821
 10
332.0124911663
 20
-77.7395083645
 10
329.5944984286
 20
-81.3131187324
 10
327.3260566827
 20
-85.0053294692
 10
325.2201593576
 20
-88.7949919264
 10
323.2888688423
 20
-92.6603992604
 10
321.5432473941
 20
-96.5794107682
 10
319.9932937745
 20
-100.5295787067
 10
318.6478859775
 20
-104.4882768717
 10
317.5147303772
 20
-108.4328301986
 10
316.6003175861
 20
-112.3406446431
 10
315.909885278
 20
-116.1893365981
 10
315.4473881866
 20
-119.9568611045
 10
315.2154754533
 20
-123.6216381231
 10
315.2154754533
 20
-127.1626761431
 10
315.4473881866
 20
-130.5596924193
 10
315.909885278
 20
-133.7932291502
 10
316.6003175861
 20
-136.8447649302
 10
317.5147303772
 20
-139.6968208386
 10
318.6478859775
 20
-142.3330605576
 10
319.9932937745
 20
-144.7383839447
 10
321.5432473941
 20
-146.8990135254
 10
323.2888688423
 20
-148.8025734092
 10
325.2201593576
 20
-150.4381601774
 10
327.3260566827
 20
-151.796405337
 10
329.5944984286
 20
-152.869528983
 10
332.0124911663
 20
-153.6513843601
 10
334.5661848524
 20
-154.1374930716
 10
337.2409521608
 20
-154.3250707307
 10
340.0214722664
 20
-154.2130429098
 10
342.891818602
 20
-153.8020512939
 10
345.8355500837
 20
-153.0944500059
 10
348.8358052841
 20
-152.0942921218
 10
351.8753990131
 20
-150.8073064554
 10
354.9369207531
 20
-149.240864744
 10
358.0028343849
 20
-147.403939424
 10
361.0555786328
 20
-145.3070522372
 10
364.0776676542
 20
-142.9622139636
 10
367.0517911969
 20
-140.3828556243
 10
369.9609137506
 20
-137.5837515505
 10
372.7883721246
 20
-134.5809347566
 10
375.5179708936
 20
-131.3916051055
 10
378.1340751629
 20
-128.0340307885
 10
380.6217001242
 20
-124.5274436873
 10
382.966596887
 20
-120.8919292152
 10
385.155334095
 20
-117.1483112698
 10
387.1753748597
 20
-113.3180329559
 10
389.0151485705
 20
-109.4230337605
 10
390.6641171703
 20
-105.4856238865
 10
392.1128355161
 20
-101.5283564611
 10
393.3530054805
 20
-97.5738983535
 10
394.3775234823
 20
-93.6449003419
 10
395.1805211751
 20
-89.763867371
 10
395.7573990609
 20
-85.9530296462
 10
396.1048528353
 20
-82.2342153008
 10
396.2208923146
 20
-78.6287253667
  0
LWPOLYLINE
  5
C9
330
1F
100
AcDbEntity
  8
0
  6
Continuous
 62
     7
370
    25
100
AcDbPolyline
 90
       74
 70
   128
 43
0.0
 10
648.4458811639
 20
-124.8782449014
 10
648.3280898116
 20
-121.6515259062
 10
647.9755878407
 20
-118.312697409
 10
647.3909850524
 20
-114.8864789277
 10
646.5786096413
 20
-111.3982369854
 10
645.5444761506
 20
-107.8737973049
 10
644.296240943
 20
-104.3392536046
 10
642.8431455151
 20
-100.8207744093
 10
641.1959480772
 20
-97.344409308
 10
639.3668439027
 20
-93.9358960917
 10
637.369375039
 20
-90.6204701997
 10
635.2183300468
 20
-87.4226778852
 10
632.9296345106
 20
-84.3661944839
 10
630.5202331313
 20
-81.4736491294
 10
628.0079642739
 20
-78.7664572156
 10
625.4114278979
 20
-76.2646618441
 10
622.7498478503
 20
-73.9867854327
 10
620.0429295385
 20
-71.9496925812
 10
617.3107140386
 20
-70.1684652126
 10
614.5734297183
 20
-68.6562909109
 10
611.851342473
 20
-67.4243652858
 10
609.1646056842
 20
-66.4818090834
 10
606.5331110112
 20
-65.8356006602
 10
603.9763411199
 20
-65.4905243171
 10
601.5132254399
 20
-65.4491348789
 10
599.1620000181
 20
-65.7117387783
 10
596.9400725047
 20
-66.2763917879
 10
594.8638932738
 20
-67.1389134145
 10
592.9488336299
 20
-68.2929178496
 10
591.2090720047
 20
-69.7298612483
 10
589.6574889845
 20
-71.4391049842
 10
588.3055719472
 20
-73.4079944149
 10
587.1633300135
 20
-75.6219525717
 10
586.239219943
 20
-78.0645880832
 10
585.5400835235
 20
-80.7178165305
 10
585.0710969163
 20
-83.5619943386
 10
584.8357323341
 20
-86.5760642101
 10
584.8357323341
 20
-89.7377110261
 10
585.0710969163
 20
-93.0235270598
 10
585.5400835235
 20
-96.4091852788
 10
586.239219943
 20
-99.8696194544
 10
587.1633300135
 20
-103.3792097424
 10
588.3055719472
 20
-106.9119723644
 10
589.6574889845
 20
-110.4417519818
 10
591.2090720047
 20
-113.9424153415
 10
592.9488336299
 20
-117.3880447565
 10
594.8638932738
 20
-120.7531299923
 10
596.9400725047
 20
-124.012757135
 10
599.1620000181
 20
-127.1427930459
 10
601.5132254399
 20
-130.120064034
 10
603.9763411199
 20
-132.9225274267
 10
606.5331110112
 20
-135.5294347655
 10
609.1646056842
 20
-137.9214854206
 10
611.851342473
 20
-140.0809694857
 10
614.5734297183
 20
-141.9918988964
 10
617.3107140386
 20
-143.6401258
 10
620.0429295385
 20
-145.013447301
 10
622.7498478503
 20
-146.1016958076
 10
625.4114278979
 20
-146.8968143087
 10
628.0079642739
 20
-147.3929160249
 10
630.5202331313
 20
-147.5863279927
 10
632.9296345106
 20
-147.4756182577
 10
635.2183300468
 20
-147.0616064759
 10
637.369375039
 20
-146.3473578458
 10
639.3668439027
 20
-145.3381604143
 10
641.1959480772
 20
-144.0414859261
 10
642.8431455151
 20
-142.4669345054
 10
644.296240943
 20
-140.6261635801
 10
645.5444761506
 20
-138.5328015741
 10
646.5786096413
 20
-136.2023470072
 10
647.3909850524
 20
-133.6520537498
 10
647.9755878407
 20
-130.9008032808
 10
648.3280898116
 20
-127.9689648961
 10
648.4458811639
 20
-124.8782449014
  0
LWPOLYLINE
  5
CA
330
1F
100
AcDbEntity
  8
0
  6
Continuous
 62
     7
370
    25
100
AcDbPolyline
 90
       82
 70
   128
 43
0.0
 10
655.5169489758
 20
-128.9602854606
 10
655.4000018327
 20
-125.4126084869
 10
655.0498637375
 20
-121.7512433628
 10
654.4686404617
 20
-117.9982099688
 10
653.6598275506
 20
-114.1760794894
 10
652.6282893002
 20
-110.3078386669
 10
651.3802295029
 20
-106.4167515569
 10
649.9231541372
 20
-102.5262196152
 10
648.2658262257
 20
-98.6596409584
 10
646.4182131336
 20
-94.8402696458
 10
644.3914266233
 20
-91.0910758256
 10
642.1976560275
 20
-87.4346075908
 10
639.8500949405
 20
-83.8928553715
 10
637.3628618711
 20
-80.4871196823
 10
634.7509153315
 20
-77.2378830184
 10
632.0299638756
 20
-74.1646866714
 10
629.2163716256
 20
-71.2860132057
 10
626.3270598564
 20
-68.6191753023
 10
623.3794052288
 20
-66.180211638
 10
620.3911352847
 20
-63.9837904275
 10
617.3802218311
 20
-62.0431212062
 10
614.3647728557
 20
-60.3698753872
 10
611.3629236237
 20
-58.9741160678
 10
608.3927276094
 20
-57.8642375087
 10
605.4720479211
 20
-57.0469146501
 10
602.6184498702
 20
-56.527062968
 10
599.8490953311
 20
-56.3078089115
 10
597.1806395279
 20
-56.3904711003
 10
594.6291308677
 20
-56.7745523942
 10
592.2099144238
 20
-57.4577428832
 10
589.9375396487
 20
-58.4359337793
 10
587.8256728715
 20
-59.7032421273
 10
585.8870151076
 20
-61.2520461858
 10
584.1332256728
 20
-63.0730312648
 10
582.5748520632
 20
-65.1552457458
 10
581.2212665211
 20
-67.486166946
 10
580.0806096691
 20
-70.0517764309
 10
579.1597415518
 20
-72.8366443233
 10
578.4642003784
 20
-75.8240221
 10
577.9981692153
 20
-78.9959433195
 10
577.7644508289
 20
-82.3333316744
 10
577.7644508289
 20
-85.8161157184
 10
577.9981692153
 20
-89.4233495785
 10
578.4642003784
 20
-93.1333389257
 10
579.1597415518
 20
-96.9237714477
 10
580.0806096691
 20
-100.7718510373
 10
581.2212665211
 20
-104.654434891
 10
582.5748520632
 20
-108.5481726926
 10
584.1332256728
 20
-112.4296470449
 10
585.8870151076
 20
-116.2755143045
 10
587.8256728715
 20
-120.062644973
 10
589.9375396487
 20
-123.7682628011
 10
592.2099144238
 20
-127.3700817671
 10
594.6291308677
 20
-130.8464401079
 10
597.1806395279
 20
-134.1764305955
 10
599.8490953311
 20
-137.3400262751
 10
602.6184498702
 20
-140.3182009103
 10
605.4720479211
 20
-143.0930434082
 10
608.3927276094
 20
-145.6478655396
 10
611.3629236237
 20
-147.9673023036
 10
614.3647728557
 20
-150.0374043346
 10
617.3802218311
 20
-151.8457217953
 10
620.3911352847
 20
-153.3813792519
 10
623.3794052288
 20
-154.6351410796
 10
626.3270598564
 20
-155.5994670073
 10
629.2163716256
 20
-156.2685574654
 10
632.0299638756
 20
-156.6383884652
 10
634.7509153315
 20
-156.7067357996
 10
637.3628618711
 20
-156.4731884195
 10
639.8500949405
 20
-155.9391509064
 10
642.1976560275
 20
-155.1078350249
 10
644.3914266233
 20
-153.9842404063
 10
646.4182131336
 20
-152.575124481
 10
648.2658262257
 20
-150.8889618378
 10
649.9231541372
 20
-148.9358932575
 10
651.3802295029
 20
-146.7276647241
 10
652.6282893002
 20
-144.277556784
 10
653.6598275506
 20
-141.6003046746
 10
654.4686404617
 20
-138.7120097051
 10
655.0498637375
 20
-135.6300424212
 10
655.4000018327
 20
-132.3729381369
 10
655.5169489758
 20
-128.9602854606
  0
ENDSEC
  0
SECTION
  2
OBJECTS
  0
DICTIONARY
  5
C
330
0
100
AcDbDictionary
281
     1
  3
ACAD_GROUP
350
D
  3
ACAD_LAYOUT
350
1A
  3
ACAD_MLINESTYLE
350
17
  3
ACAD_PLOTSETTINGS
350
19
  3
ACAD_PLOTSTYLENAME
350
E
  3
ACAD_SCALELIST
350
47
  0
DICTIONARY
  5
D
102
{ACAD_REACTORS
330
C
102
}
330
C
100
AcDbDictionary
281
     1
  0
DICTIONARY
  5
1A
102
{ACAD_REACTORS
330
C
102
}
330
C
100
AcDbDictionary
281
     1
  3
Layout1
350
1E
  3
Layout2
350
26
  3
Model
350
22
  0
DICTIONARY
  5
17
102
{ACAD_REACTORS
330
C
102
}
330
C
100
AcDbDictionary
281
     1
  3
Standard
350
18
  0
DICTIONARY
  5
19
102
{ACAD_REACTORS
330
C
102
}
330
C
100
AcDbDictionary
281
     1
  0
ACDBDICTIONARYWDFLT
  5
E
102
{ACAD_REACTORS
330
C
102
}
330
C
100
AcDbDictionary
281
     1
  3
Normal
350
F
100
AcDbDictionaryWithDefault
340
F
  0
DICTIONARY
  5
47
102
{ACAD_REACTORS
330
C
102
}
330
C
100
AcDbDictionary
281
     1
  3
A0
350
48
  3
A1
350
49
  3
A2
350
4A
  3
A3
350
4B
  3
A4
350
4C
  3
A5
350
4D
  3
A6
350
4E
  3
A7
350
4F
  3
A8
350
50
  3
A9
350
51
  3
B0
350
52
  3
B1
350
53
  3
B2
350
54
  3
B3
350
55
  3
B4
350
56
  3
B5
350
57
  3
B6
350
58
  3
B7
350
59
  3
B8
350
5A
  3
B9
350
5B
  3
C0
350
5C
  3
C1
350
5D
  3
C2
350
5E
  3
C3
350
5F
  3
C4
350
60
  3
C5
350
61
  3
C6
350
62
  3
C7
350
63
  3
C8
350
64
  3
C9
350
65
  3
D0
350
66
  3
D1
350
67
  3
D2
350
68
  0
LAYOUT
  5
1E
102
{ACAD_REACTORS
330
1A
102
}
330
1A
100
AcDbPlotSettings
  1

  2
none_device
  4

  6

 40
0.0
 41
0.0
 42
0.0
 43
0.0
 44
0.0
 45
0.0
 46
0.0
 47
0.0
 48
0.0
 49
0.0
140
0.0
141
0.0
142
1.0
143
1.0
 70
   688
 72
     1
 73
     0
 74
     5
  7

 75
    16
147
1.0
148
0.0
149
0.0
100
AcDbLayout
  1
Layout1
 70
     1
 71
     1
 10
0.0
 20
0.0
 11
420.0
 21
297.0
 12
0.0
 22
0.0
 32
0.0
 14
1.0000000000E+20
 24
1.0000000000E+20
 34
1.0000000000E+20
 15
-1.0000000000E+20
 25
-1.0000000000E+20
 35
-1.0000000000E+20
146
0.0
 13
0.0
 23
0.0
 33
0.0
 16
1.0
 26
0.0
 36
0.0
 17
0.0
 27
1.0
 37
0.0
 76
     0
330
1B
  0
LAYOUT
  5
26
102
{ACAD_REACTORS
330
1A
102
}
330
1A
100
AcDbPlotSettings
  1

  2
none_device
  4

  6

 40
0.0
 41
0.0
 42
0.0
 43
0.0
 44
0.0
 45
0.0
 46
0.0
 47
0.0
 48
0.0
 49
0.0
140
0.0
141
0.0
142
1.0
143
1.0
 70
   688
 72
     1
 73
     0
 74
     5
  7

 75
    16
147
1.0
148
0.0
149
0.0
100
AcDbLayout
  1
Layout2
 70
     1
 71
     2
 10
0.0
 20
0.0
 11
0.0
 21
0.0
 12
0.0
 22
0.0
 32
0.0
 14
0.0
 24
0.0
 34
0.0
 15
0.0
 25
0.0
 35
0.0
146
0.0
 13
0.0
 23
0.0
 33
0.0
 16
1.0
 26
0.0
 36
0.0
 17
0.0
 27
1.0
 37
0.0
 76
     0
330
23
  0
LAYOUT
  5
22
102
{ACAD_REACTORS
330
1A
102
}
330
1A
100
AcDbPlotSettings
  1

  2
none_device
  4
Letter_(8.50_x_11.00_Inches)
  6

 40
6.35
 41
6.35
 42
6.35000508
 43
6.35000508
 44
215.9
 45
279.4
 46
0.0
 47
0.0
 48
0.0
 49
0.0
140
0.0
141
0.0
142
1.0
143
1.0
 70
  1712
 72
     1
 73
     0
 74
     0
  7

 75
     0
147
1.0
148
0.0
149
0.0
100
AcDbLayout
  1
Model
 70
     1
 71
     0
 10
0.0
 20
0.0
 11
279.4
 21
215.9
 12
0.0
 22
0.0
 32
0.0
 14
0.0
 24
0.0
 34
0.0
 15
279.4
 25
215.9
 35
0.0
146
0.0
 13
0.0
 23
0.0
 33
0.0
 16
1.0
 26
0.0
 36
0.0
 17
0.0
 27
1.0
 37
0.0
 76
     0
330
1F
331
29
  0
MLINESTYLE
  5
18
102
{ACAD_REACTORS
330
17
102
}
330
17
100
AcDbMlineStyle
  2
Standard
 70
     0
  3

 62
   256
 51
90.0
 52
90.0
 71
     2
 49
0.5
 62
   256
  6
BYLAYER
 49
-0.5
 62
   256
  6
BYLAYER
  0
ACDBPLACEHOLDER
  5
F
102
{ACAD_REACTORS
330
E
102
}
330
E
  0
SCALE
  5
48
102
{ACAD_REACTORS
330
47
102
}
330
47
100
AcDbScale
 70
     0
300
1:1
140
1.0
141
1.0
290
     1
  0
SCALE
  5
49
102
{ACAD_REACTORS
330
47
102
}
330
47
100
AcDbScale
 70
     0
300
1:2
140
1.0
141
2.0
290
     0
  0
SCALE
  5
4A
102
{ACAD_REACTORS
330
47
102
}
330
47
100
AcDbScale
 70
     0
300
1:4
140
1.0
141
4.0
290
     0
  0
SCALE
  5
4B
102
{ACAD_REACTORS
330
47
102
}
330
47
100
AcDbScale
 70
     0
300
1:5
140
1.0
141
5.0
290
     0
  0
SCALE
  5
4C
102
{ACAD_REACTORS
330
47
102
}
330
47
100
AcDbScale
 70
     0
300
1:8
140
1.0
141
8.0
290
     0
  0
SCALE
  5
4D
102
{ACAD_REACTORS
330
47
102
}
330
47
100
AcDbScale
 70
     0
300
1:10
140
1.0
141
10.0
290
     0
  0
SCALE
  5
4E
102
{ACAD_REACTORS
330
47
102
}
330
47
100
AcDbScale
 70
     0
300
1:16
140
1.0
141
16.0
290
     0
  0
SCALE
  5
4F
102
{ACAD_REACTORS
330
47
102
}
330
47
100
AcDbScale
 70
     0
300
1:20
140
1.0
141
20.0
290
     0
  0
SCALE
  5
50
102
{ACAD_REACTORS
330
47
102
}
330
47
100
AcDbScale
 70
     0
300
1:30
140
1.0
141
30.0
290
     0
  0
SCALE
  5
51
102
{ACAD_REACTORS
330
47
102
}
330
47
100
AcDbScale
 70
     0
300
1:40
140
1.0
141
40.0
290
     0
  0
SCALE
  5
52
102
{ACAD_REACTORS
330
47
102
}
330
47
100
AcDbScale
 70
     0
300
1:50
140
1.0
141
50.0
290
     0
  0
SCALE
  5
53
102
{ACAD_REACTORS
330
47
102
}
330
47
100
AcDbScale
 70
     0
300
1:100
140
1.0
141
100.0
290
     0
  0
SCALE
  5
54
102
{ACAD_REACTORS
330
47
102
}
330
47
100
AcDbScale
 70
     0
300
2:1
140
2.0
141
1.0
290
     0
  0
SCALE
  5
55
102
{ACAD_REACTORS
330
47
102
}
330
47
100
AcDbScale
 70
     0
300
4:1
140
4.0
141
1.0
290
     0
  0
SCALE
  5
56
102
{ACAD_REACTORS
330
47
102
}
330
47
100
AcDbScale
 70
     0
300
8:1
140
8.0
141
1.0
290
     0
  0
SCALE
  5
57
102
{ACAD_REACTORS
330
47
102
}
330
47
100
AcDbScale
 70
     0
300
10:1
140
10.0
141
1.0
290
     0
  0
SCALE
  5
58
102
{ACAD_REACTORS
330
47
102
}
330
47
100
AcDbScale
 70
     0
300
100:1
140
100.0
141
1.0
290
     0
  0
SCALE
  5
59
102
{ACAD_REACTORS
330
47
102
}
330
47
100
AcDbScale
 70
     0
300
1/128" = 1'-0"
140
0.0078125
141
12.0
290
     0
  0
SCALE
  5
5A
102
{ACAD_REACTORS
330
47
102
}
330
47
100
AcDbScale
 70
     0
300
1/64" = 1'-0"
140
0.015625
141
12.0
290
     0
  0
SCALE
  5
5B
102
{ACAD_REACTORS
330
47
102
}
330
47
100
AcDbScale
 70
     0
300
1/32" = 1'-0"
140
0.03125
141
12.0
290
     0
  0
SCALE
  5
5C
102
{ACAD_REACTORS
330
47
102
}
330
47
100
AcDbScale
 70
     0
300
1/16" = 1'-0"
140
0.0625
141
12.0
290
     0
  0
SCALE
  5
5D
102
{ACAD_REACTORS
330
47
102
}
330
47
100
AcDbScale
 70
     0
300
3/32" = 1'-0"
140
0.09375
141
12.0
290
     0
  0
SCALE
  5
5E
102
{ACAD_REACTORS
330
47
102
}
330
47
100
AcDbScale
 70
     0
300
1/8" = 1'-0"
140
0.125
141
12.0
290
     0
  0
SCALE
  5
5F
102
{ACAD_REACTORS
330
47
102
}
330
47
100
AcDbScale
 70
     0
300
3/16" = 1'-0"
140
0.1875
141
12.0
290
     0
  0
SCALE
  5
60
102
{ACAD_REACTORS
330
47
102
}
330
47
100
AcDbScale
 70
     0
300
1/4" = 1'-0"
140
0.25
141
12.0
290
     0
  0
SCALE
  5
61
102
{ACAD_REACTORS
330
47
102
}
330
47
100
AcDbScale
 70
     0
300
3/8" = 1'-0"
140
0.375
141
12.0
290
     0
  0
SCALE
  5
62
102
{ACAD_REACTORS
330
47
102
}
330
47
100
AcDbScale
 70
     0
300
1/2" = 1'-0"
140
0.5
141
12.0
290
     0
  0
SCALE
  5
63
102
{ACAD_REACTORS
330
47
102
}
330
47
100
AcDbScale
 70
     0
300
3/4" = 1'-0"
140
0.75
141
12.0
290
     0
  0
SCALE
  5
64
102
{ACAD_REACTORS
330
47
102
}
330
47
100
AcDbScale
 70
     0
300
1" = 1'-0"
140
1.0
141
12.0
290
     0
  0
SCALE
  5
65
102
{ACAD_REACTORS
330
47
102
}
330
47
100
AcDbScale
 70
     0
300
1-1/2" = 1'-0"
140
1.5
141
12.0
290
     0
  0
SCALE
  5
66
102
{ACAD_REACTORS
330
47
102
}
330
47
100
AcDbScale
 70
     0
300
3" = 1'-0"
140
3.0
141
12.0
290
     0
  0
SCALE
  5
67
102
{ACAD_REACTORS
330
47
102
}
330
47
100
AcDbScale
 70
     0
300
6" = 1'-0"
140
6.0
141
12.0
290
     0
  0
SCALE
  5
68
102
{ACAD_REACTORS
330
47
102
}
330
47
100
AcDbScale
 70
     0
300
1'-0" = 1'-0"
140
12.0
141
12.0
290
     0
  0
ENDSEC
  0
EOF
